ISO-10303-21;
HEADER;
FILE_DESCRIPTION((''),'2;1');
FILE_NAME('ASN-EN10241-DN40-60','2017-06-26T',('cfitz'),(
'vacuvane vacuum technology gmbh'),'CREO PARAMETRIC BY PTC INC, 2016130',
'CREO PARAMETRIC BY PTC INC, 2016130','');
FILE_SCHEMA(('CONFIG_CONTROL_DESIGN'));
ENDSEC;
DATA;
#2=CARTESIAN_POINT('',(0.E0,0.E0,6.E1));
#3=DIRECTION('',(0.E0,0.E0,-1.E0));
#4=DIRECTION('',(0.E0,1.E0,0.E0));
#5=AXIS2_PLACEMENT_3D('',#2,#3,#4);
#7=DIRECTION('',(0.E0,0.E0,-1.E0));
#8=VECTOR('',#7,6.E1);
#9=CARTESIAN_POINT('',(0.E0,2.115E1,6.E1));
#10=LINE('',#9,#8);
#11=DIRECTION('',(0.E0,0.E0,-1.E0));
#12=VECTOR('',#11,6.E1);
#13=CARTESIAN_POINT('',(0.E0,-2.115E1,6.E1));
#14=LINE('',#13,#12);
#15=CARTESIAN_POINT('',(0.E0,0.E0,6.E1));
#16=DIRECTION('',(0.E0,0.E0,1.E0));
#17=DIRECTION('',(0.E0,1.E0,0.E0));
#18=AXIS2_PLACEMENT_3D('',#15,#16,#17);
#20=CARTESIAN_POINT('',(0.E0,0.E0,0.E0));
#21=DIRECTION('',(0.E0,0.E0,1.E0));
#22=DIRECTION('',(0.E0,1.E0,0.E0));
#23=AXIS2_PLACEMENT_3D('',#20,#21,#22);
#25=CARTESIAN_POINT('',(0.E0,0.E0,0.E0));
#26=DIRECTION('',(0.E0,0.E0,-1.E0));
#27=DIRECTION('',(0.E0,1.E0,0.E0));
#28=AXIS2_PLACEMENT_3D('',#25,#26,#27);
#30=CARTESIAN_POINT('',(0.E0,0.E0,0.E0));
#31=DIRECTION('',(0.E0,0.E0,-1.E0));
#32=DIRECTION('',(0.E0,1.E0,0.E0));
#33=AXIS2_PLACEMENT_3D('',#30,#31,#32);
#35=CARTESIAN_POINT('',(0.E0,0.E0,3.9348E1));
#36=DIRECTION('',(0.E0,0.E0,-1.E0));
#37=DIRECTION('',(0.E0,1.E0,0.E0));
#38=AXIS2_PLACEMENT_3D('',#35,#36,#37);
#40=DIRECTION('',(0.E0,0.E0,1.E0));
#41=VECTOR('',#40,3.9348E1);
#42=CARTESIAN_POINT('',(0.E0,2.415E1,0.E0));
#43=LINE('',#42,#41);
#44=CARTESIAN_POINT('',(0.E0,0.E0,3.9348E1));
#45=DIRECTION('',(0.E0,0.E0,-1.E0));
#46=DIRECTION('',(0.E0,-1.E0,0.E0));
#47=AXIS2_PLACEMENT_3D('',#44,#45,#46);
#49=DIRECTION('',(0.E0,0.E0,1.E0));
#50=VECTOR('',#49,3.9348E1);
#51=CARTESIAN_POINT('',(0.E0,-2.415E1,0.E0));
#52=LINE('',#51,#50);
#53=CARTESIAN_POINT('',(0.E0,0.E0,0.E0));
#54=DIRECTION('',(0.E0,0.E0,1.E0));
#55=DIRECTION('',(0.E0,1.E0,0.E0));
#56=AXIS2_PLACEMENT_3D('',#53,#54,#55);
#58=CARTESIAN_POINT('',(0.E0,0.E0,5.900048792391E1));
#59=DIRECTION('',(0.E0,0.E0,1.E0));
#60=DIRECTION('',(0.E0,1.E0,0.E0));
#61=AXIS2_PLACEMENT_3D('',#58,#59,#60);
#63=DIRECTION('',(1.616281911796E-10,-3.123475238345E-2,-9.995120760869E-1));
#64=VECTOR('',#63,1.966208152378E1);
#65=CARTESIAN_POINT('',(-3.177950368417E-9,-2.353585975226E1,5.900048792403E1));
#66=LINE('',#65,#64);
#67=DIRECTION('',(-1.616282914597E-10,3.123475238345E-2,-9.995120760869E-1));
#68=VECTOR('',#67,1.966208152378E1);
#69=CARTESIAN_POINT('',(3.177951600752E-9,2.353585975226E1,5.900048792403E1));
#70=LINE('',#69,#68);
#71=DIRECTION('',(-6.083420938583E-10,7.180650222570E-1,-6.959760224398E-1));
#72=VECTOR('',#71,1.436130044558E0);
#73=CARTESIAN_POINT('',(4.051609959111E-9,2.250462499985E1,6.000000000014E1));
#74=LINE('',#73,#72);
#75=CARTESIAN_POINT('',(0.E0,0.E0,6.E1));
#76=DIRECTION('',(0.E0,0.E0,1.E0));
#77=DIRECTION('',(0.E0,-1.E0,0.E0));
#78=AXIS2_PLACEMENT_3D('',#75,#76,#77);
#80=CARTESIAN_POINT('',(0.E0,0.E0,6.E1));
#81=DIRECTION('',(0.E0,0.E0,1.E0));
#82=DIRECTION('',(0.E0,1.E0,0.E0));
#83=AXIS2_PLACEMENT_3D('',#80,#81,#82);
#85=DIRECTION('',(6.083423870334E-10,-7.180650222570E-1,-6.959760224398E-1));
#86=VECTOR('',#85,1.436130044558E0);
#87=CARTESIAN_POINT('',(-4.051609147814E-9,-2.250462499985E1,6.000000000014E1));
#88=LINE('',#87,#86);
#89=CARTESIAN_POINT('',(0.E0,0.E0,5.900048792391E1));
#90=DIRECTION('',(0.E0,0.E0,1.E0));
#91=DIRECTION('',(0.E0,-1.E0,0.E0));
#92=AXIS2_PLACEMENT_3D('',#89,#90,#91);
#94=CARTESIAN_POINT('',(0.E0,2.115E1,6.E1));
#95=CARTESIAN_POINT('',(0.E0,2.115E1,0.E0));
#96=VERTEX_POINT('',#94);
#97=VERTEX_POINT('',#95);
#98=CARTESIAN_POINT('',(0.E0,-2.115E1,6.E1));
#99=CARTESIAN_POINT('',(0.E0,-2.115E1,0.E0));
#100=VERTEX_POINT('',#98);
#101=VERTEX_POINT('',#99);
#102=CARTESIAN_POINT('',(0.E0,2.415E1,0.E0));
#103=CARTESIAN_POINT('',(0.E0,-2.415E1,0.E0));
#104=VERTEX_POINT('',#102);
#105=VERTEX_POINT('',#103);
#106=CARTESIAN_POINT('',(0.E0,2.415E1,3.9348E1));
#107=VERTEX_POINT('',#106);
#108=CARTESIAN_POINT('',(0.E0,-2.415E1,3.9348E1));
#109=VERTEX_POINT('',#108);
#110=CARTESIAN_POINT('',(0.E0,-2.2504625E1,6.E1));
#111=CARTESIAN_POINT('',(0.E0,2.2504625E1,6.E1));
#112=VERTEX_POINT('',#110);
#113=VERTEX_POINT('',#111);
#114=CARTESIAN_POINT('',(0.E0,-2.353585975238E1,5.900048792391E1));
#115=CARTESIAN_POINT('',(0.E0,2.353585975238E1,5.900048792391E1));
#116=VERTEX_POINT('',#114);
#117=VERTEX_POINT('',#115);
#118=CARTESIAN_POINT('',(0.E0,0.E0,6.3E1));
#119=DIRECTION('',(0.E0,0.E0,-1.E0));
#120=DIRECTION('',(0.E0,-1.E0,0.E0));
#121=AXIS2_PLACEMENT_3D('',#118,#119,#120);
#122=CYLINDRICAL_SURFACE('',#121,2.115E1);
#124=ORIENTED_EDGE('',*,*,#123,.F.);
#126=ORIENTED_EDGE('',*,*,#125,.T.);
#128=ORIENTED_EDGE('',*,*,#127,.T.);
#130=ORIENTED_EDGE('',*,*,#129,.F.);
#131=EDGE_LOOP('',(#124,#126,#128,#130));
#132=FACE_OUTER_BOUND('',#131,.F.);
#133=ADVANCED_FACE('',(#132),#122,.F.);
#134=CARTESIAN_POINT('',(0.E0,0.E0,6.3E1));
#135=DIRECTION('',(0.E0,0.E0,-1.E0));
#136=DIRECTION('',(0.E0,-1.E0,0.E0));
#137=AXIS2_PLACEMENT_3D('',#134,#135,#136);
#138=CYLINDRICAL_SURFACE('',#137,2.115E1);
#139=ORIENTED_EDGE('',*,*,#123,.T.);
#141=ORIENTED_EDGE('',*,*,#140,.T.);
#142=ORIENTED_EDGE('',*,*,#127,.F.);
#144=ORIENTED_EDGE('',*,*,#143,.F.);
#145=EDGE_LOOP('',(#139,#141,#142,#144));
#146=FACE_OUTER_BOUND('',#145,.F.);
#147=ADVANCED_FACE('',(#146),#138,.F.);
#148=CARTESIAN_POINT('',(0.E0,0.E0,0.E0));
#149=DIRECTION('',(0.E0,0.E0,-1.E0));
#150=DIRECTION('',(0.E0,-1.E0,0.E0));
#151=AXIS2_PLACEMENT_3D('',#148,#149,#150);
#152=PLANE('',#151);
#154=ORIENTED_EDGE('',*,*,#153,.F.);
#156=ORIENTED_EDGE('',*,*,#155,.T.);
#157=EDGE_LOOP('',(#154,#156));
#158=FACE_OUTER_BOUND('',#157,.F.);
#159=ORIENTED_EDGE('',*,*,#140,.F.);
#160=ORIENTED_EDGE('',*,*,#129,.T.);
#161=EDGE_LOOP('',(#159,#160));
#162=FACE_BOUND('',#161,.F.);
#163=ADVANCED_FACE('',(#158,#162),#152,.T.);
#164=CARTESIAN_POINT('',(0.E0,0.E0,6.3E1));
#165=DIRECTION('',(0.E0,0.E0,-1.E0));
#166=DIRECTION('',(0.E0,-1.E0,0.E0));
#167=AXIS2_PLACEMENT_3D('',#164,#165,#166);
#168=CYLINDRICAL_SURFACE('',#167,2.415E1);
#170=ORIENTED_EDGE('',*,*,#169,.F.);
#171=ORIENTED_EDGE('',*,*,#153,.T.);
#173=ORIENTED_EDGE('',*,*,#172,.T.);
#175=ORIENTED_EDGE('',*,*,#174,.F.);
#176=EDGE_LOOP('',(#170,#171,#173,#175));
#177=FACE_OUTER_BOUND('',#176,.F.);
#178=ADVANCED_FACE('',(#177),#168,.T.);
#179=CARTESIAN_POINT('',(0.E0,0.E0,6.3E1));
#180=DIRECTION('',(0.E0,0.E0,-1.E0));
#181=DIRECTION('',(0.E0,-1.E0,0.E0));
#182=AXIS2_PLACEMENT_3D('',#179,#180,#181);
#183=CYLINDRICAL_SURFACE('',#182,2.415E1);
#184=ORIENTED_EDGE('',*,*,#169,.T.);
#186=ORIENTED_EDGE('',*,*,#185,.F.);
#187=ORIENTED_EDGE('',*,*,#172,.F.);
#188=ORIENTED_EDGE('',*,*,#155,.F.);
#189=EDGE_LOOP('',(#184,#186,#187,#188));
#190=FACE_OUTER_BOUND('',#189,.F.);
#191=ADVANCED_FACE('',(#190),#183,.T.);
#192=CARTESIAN_POINT('',(0.E0,0.E0,4.917424396196E1));
#193=DIRECTION('',(0.E0,0.E0,-1.E0));
#194=DIRECTION('',(0.E0,-1.E0,0.E0));
#195=AXIS2_PLACEMENT_3D('',#192,#193,#194);
#196=CONICAL_SURFACE('',#195,2.384292987619E1,1.789910608246E0);
#198=ORIENTED_EDGE('',*,*,#197,.T.);
#200=ORIENTED_EDGE('',*,*,#199,.T.);
#201=ORIENTED_EDGE('',*,*,#185,.T.);
#203=ORIENTED_EDGE('',*,*,#202,.F.);
#204=EDGE_LOOP('',(#198,#200,#201,#203));
#205=FACE_OUTER_BOUND('',#204,.F.);
#206=ADVANCED_FACE('',(#205),#196,.T.);
#207=CARTESIAN_POINT('',(0.E0,0.E0,5.950024396210E1));
#208=DIRECTION('',(0.E0,0.E0,-1.E0));
#209=DIRECTION('',(0.E0,-1.E0,0.E0));
#210=AXIS2_PLACEMENT_3D('',#207,#208,#209);
#211=CONICAL_SURFACE('',#210,2.302024237604E1,4.589495530412E1);
#213=ORIENTED_EDGE('',*,*,#212,.T.);
#215=ORIENTED_EDGE('',*,*,#214,.T.);
#216=ORIENTED_EDGE('',*,*,#197,.F.);
#218=ORIENTED_EDGE('',*,*,#217,.F.);
#219=EDGE_LOOP('',(#213,#215,#216,#218));
#220=FACE_OUTER_BOUND('',#219,.F.);
#221=ADVANCED_FACE('',(#220),#211,.T.);
#222=CARTESIAN_POINT('',(0.E0,0.E0,6.E1));
#223=DIRECTION('',(0.E0,0.E0,-1.E0));
#224=DIRECTION('',(0.E0,-1.E0,0.E0));
#225=AXIS2_PLACEMENT_3D('',#222,#223,#224);
#226=PLANE('',#225);
#228=ORIENTED_EDGE('',*,*,#227,.F.);
#229=ORIENTED_EDGE('',*,*,#212,.F.);
#230=EDGE_LOOP('',(#228,#229));
#231=FACE_OUTER_BOUND('',#230,.F.);
#232=ORIENTED_EDGE('',*,*,#125,.F.);
#233=ORIENTED_EDGE('',*,*,#143,.T.);
#234=EDGE_LOOP('',(#232,#233));
#235=FACE_BOUND('',#234,.F.);
#236=ADVANCED_FACE('',(#231,#235),#226,.F.);
#237=CARTESIAN_POINT('',(0.E0,0.E0,5.950024396210E1));
#238=DIRECTION('',(0.E0,0.E0,-1.E0));
#239=DIRECTION('',(0.E0,-1.E0,0.E0));
#240=AXIS2_PLACEMENT_3D('',#237,#238,#239);
#241=CONICAL_SURFACE('',#240,2.302024237604E1,4.589495530412E1);
#242=ORIENTED_EDGE('',*,*,#227,.T.);
#243=ORIENTED_EDGE('',*,*,#217,.T.);
#245=ORIENTED_EDGE('',*,*,#244,.F.);
#246=ORIENTED_EDGE('',*,*,#214,.F.);
#247=EDGE_LOOP('',(#242,#243,#245,#246));
#248=FACE_OUTER_BOUND('',#247,.F.);
#249=ADVANCED_FACE('',(#248),#241,.T.);
#250=CARTESIAN_POINT('',(0.E0,0.E0,4.917424396196E1));
#251=DIRECTION('',(0.E0,0.E0,-1.E0));
#252=DIRECTION('',(0.E0,-1.E0,0.E0));
#253=AXIS2_PLACEMENT_3D('',#250,#251,#252);
#254=CONICAL_SURFACE('',#253,2.384292987619E1,1.789910608246E0);
#255=ORIENTED_EDGE('',*,*,#244,.T.);
#256=ORIENTED_EDGE('',*,*,#202,.T.);
#257=ORIENTED_EDGE('',*,*,#174,.T.);
#258=ORIENTED_EDGE('',*,*,#199,.F.);
#259=EDGE_LOOP('',(#255,#256,#257,#258));
#260=FACE_OUTER_BOUND('',#259,.F.);
#261=ADVANCED_FACE('',(#260),#254,.T.);
#262=CLOSED_SHELL('',(#133,#147,#163,#178,#191,#206,#221,#236,#249,#261));
#263=MANIFOLD_SOLID_BREP('',#262);
#265=DIMENSIONAL_EXPONENTS(0.E0,0.E0,0.E0,0.E0,0.E0,0.E0,0.E0);
#267=PLANE_ANGLE_MEASURE_WITH_UNIT(PLANE_ANGLE_MEASURE(1.745329251994E-2),#266);
#268=(CONVERSION_BASED_UNIT('DEGREE',#267)NAMED_UNIT(*)PLANE_ANGLE_UNIT());
#270=UNCERTAINTY_MEASURE_WITH_UNIT(LENGTH_MEASURE(9.225701777843E-3),#264,
'closure',
'Maximum model space distance between geometric entities at asserted connectivities');
#271=(GEOMETRIC_REPRESENTATION_CONTEXT(3)GLOBAL_UNCERTAINTY_ASSIGNED_CONTEXT((
#270))GLOBAL_UNIT_ASSIGNED_CONTEXT((#264,#268,#269))REPRESENTATION_CONTEXT
('ID1','3'));
#273=APPLICATION_CONTEXT(
'CONFIGURATION CONTROLLED 3D DESIGNS OF MECHANICAL PARTS AND ASSEMBLIES');
#274=APPLICATION_PROTOCOL_DEFINITION('international standard',
'config_control_design',1994,#273);
#275=DESIGN_CONTEXT('',#273,'design');
#276=MECHANICAL_CONTEXT('',#273,'mechanical');
#277=PRODUCT('ASN-EN10241-DN40-60','ASN-EN10241-DN40-60','NOT SPECIFIED',
(#276));
#278=PRODUCT_DEFINITION_FORMATION_WITH_SPECIFIED_SOURCE('1','LAST_VERSION',#277,
.MADE.);
#282=PRODUCT_CATEGORY('part','');
#283=PRODUCT_RELATED_PRODUCT_CATEGORY('detail','',(#277));
#284=PRODUCT_CATEGORY_RELATIONSHIP('','',#282,#283);
#285=SECURITY_CLASSIFICATION_LEVEL('unclassified');
#286=SECURITY_CLASSIFICATION('','',#285);
#287=CC_DESIGN_SECURITY_CLASSIFICATION(#286,(#278));
#288=APPROVAL_STATUS('approved');
#289=APPROVAL(#288,'');
#290=CC_DESIGN_APPROVAL(#289,(#286,#278,#279));
#291=CALENDAR_DATE(117,26,6);
#292=COORDINATED_UNIVERSAL_TIME_OFFSET(2,0,.AHEAD.);
#293=LOCAL_TIME(16,14,4.8E1,#292);
#294=DATE_AND_TIME(#291,#293);
#295=APPROVAL_DATE_TIME(#294,#289);
#296=DATE_TIME_ROLE('creation_date');
#297=CC_DESIGN_DATE_AND_TIME_ASSIGNMENT(#294,#296,(#279));
#298=DATE_TIME_ROLE('classification_date');
#299=CC_DESIGN_DATE_AND_TIME_ASSIGNMENT(#294,#298,(#286));
#300=PERSON('UNSPECIFIED','UNSPECIFIED',$,$,$,$);
#301=ORGANIZATION('UNSPECIFIED','UNSPECIFIED','UNSPECIFIED');
#302=PERSON_AND_ORGANIZATION(#300,#301);
#303=APPROVAL_ROLE('approver');
#304=APPROVAL_PERSON_ORGANIZATION(#302,#289,#303);
#305=PERSON_AND_ORGANIZATION_ROLE('creator');
#306=CC_DESIGN_PERSON_AND_ORGANIZATION_ASSIGNMENT(#302,#305,(#278,#279));
#307=PERSON_AND_ORGANIZATION_ROLE('design_supplier');
#308=CC_DESIGN_PERSON_AND_ORGANIZATION_ASSIGNMENT(#302,#307,(#278));
#309=PERSON_AND_ORGANIZATION_ROLE('classification_officer');
#310=CC_DESIGN_PERSON_AND_ORGANIZATION_ASSIGNMENT(#302,#309,(#286));
#311=PERSON_AND_ORGANIZATION_ROLE('design_owner');
#312=CC_DESIGN_PERSON_AND_ORGANIZATION_ASSIGNMENT(#302,#311,(#277));
#6=CIRCLE('',#5,2.115E1);
#19=CIRCLE('',#18,2.115E1);
#24=CIRCLE('',#23,2.115E1);
#29=CIRCLE('',#28,2.115E1);
#34=CIRCLE('',#33,2.415E1);
#39=CIRCLE('',#38,2.415E1);
#48=CIRCLE('',#47,2.415E1);
#57=CIRCLE('',#56,2.415E1);
#62=CIRCLE('',#61,2.353585975238E1);
#79=CIRCLE('',#78,2.2504625E1);
#84=CIRCLE('',#83,2.2504625E1);
#93=CIRCLE('',#92,2.353585975238E1);
#123=EDGE_CURVE('',#96,#97,#10,.T.);
#125=EDGE_CURVE('',#96,#100,#6,.T.);
#127=EDGE_CURVE('',#100,#101,#14,.T.);
#129=EDGE_CURVE('',#97,#101,#29,.T.);
#140=EDGE_CURVE('',#97,#101,#24,.T.);
#143=EDGE_CURVE('',#96,#100,#19,.T.);
#153=EDGE_CURVE('',#104,#105,#34,.T.);
#155=EDGE_CURVE('',#104,#105,#57,.T.);
#169=EDGE_CURVE('',#104,#107,#43,.T.);
#172=EDGE_CURVE('',#105,#109,#52,.T.);
#174=EDGE_CURVE('',#107,#109,#39,.T.);
#185=EDGE_CURVE('',#109,#107,#48,.T.);
#197=EDGE_CURVE('',#117,#116,#62,.T.);
#199=EDGE_CURVE('',#116,#109,#66,.T.);
#202=EDGE_CURVE('',#117,#107,#70,.T.);
#212=EDGE_CURVE('',#113,#112,#84,.T.);
#214=EDGE_CURVE('',#112,#116,#88,.T.);
#217=EDGE_CURVE('',#113,#117,#74,.T.);
#227=EDGE_CURVE('',#112,#113,#79,.T.);
#244=EDGE_CURVE('',#116,#117,#93,.T.);
#264=(LENGTH_UNIT()NAMED_UNIT(*)SI_UNIT(.MILLI.,.METRE.));
#266=(NAMED_UNIT(*)PLANE_ANGLE_UNIT()SI_UNIT($,.RADIAN.));
#269=(NAMED_UNIT(*)SI_UNIT($,.STERADIAN.)SOLID_ANGLE_UNIT());
#272=ADVANCED_BREP_SHAPE_REPRESENTATION('',(#263),#271);
#279=PRODUCT_DEFINITION('design','',#278,#275);
#280=PRODUCT_DEFINITION_SHAPE('','SHAPE FOR ASN-EN10241-DN40-60.',#279);
#281=SHAPE_DEFINITION_REPRESENTATION(#280,#272);
ENDSEC;
END-ISO-10303-21;
